ISO-10303-21;
HEADER;
/* Generated by software containing ST-Developer
 * from STEP Tools, Inc. (www.steptools.com) 
 */

FILE_DESCRIPTION(
/* description */ ('GRIFFA PER PINZE PARALLELE'),
/* implementation_level */ '2;1');

FILE_NAME(
/* name */ 'C:\\Disegni\\OMIL\\ACCESSORI\\GS\\GS-CC-64.stp',
/* time_stamp */ '2019-11-14T19:59:15+01:00',
/* author */ ('Emilio'),
/* organization */ (''),
/* preprocessor_version */ 'ST-DEVELOPER v17',
/* originating_system */ 'Autodesk Inventor 2019',
/* authorisation */ '');

FILE_SCHEMA (('AUTOMOTIVE_DESIGN { 1 0 10303 214 3 1 1 }'));
ENDSEC;

DATA;
#10=MECHANICAL_DESIGN_GEOMETRIC_PRESENTATION_REPRESENTATION('',(#13),#643);
#11=SHAPE_REPRESENTATION_RELATIONSHIP('SRR','None',#650,#12);
#12=ADVANCED_BREP_SHAPE_REPRESENTATION('',(#14),#642);
#13=STYLED_ITEM('',(#659),#14);
#14=MANIFOLD_SOLID_BREP('Solido2',#363);
#15=CYLINDRICAL_SURFACE('',#389,3.);
#16=CYLINDRICAL_SURFACE('',#395,3.);
#17=CYLINDRICAL_SURFACE('',#409,4.);
#18=CYLINDRICAL_SURFACE('',#412,2.25);
#19=CYLINDRICAL_SURFACE('',#417,4.);
#20=CYLINDRICAL_SURFACE('',#420,2.25);
#21=FACE_BOUND('',#63,.T.);
#22=FACE_BOUND('',#64,.T.);
#23=FACE_BOUND('',#72,.T.);
#24=FACE_BOUND('',#74,.T.);
#25=FACE_BOUND('',#76,.T.);
#26=FACE_BOUND('',#80,.T.);
#27=FACE_BOUND('',#87,.T.);
#28=FACE_BOUND('',#88,.T.);
#29=PLANE('',#387);
#30=PLANE('',#398);
#31=PLANE('',#399);
#32=PLANE('',#400);
#33=PLANE('',#401);
#34=PLANE('',#403);
#35=PLANE('',#405);
#36=PLANE('',#413);
#37=PLANE('',#421);
#38=PLANE('',#422);
#39=PLANE('',#423);
#40=PLANE('',#424);
#41=FACE_OUTER_BOUND('',#61,.T.);
#42=FACE_OUTER_BOUND('',#62,.T.);
#43=FACE_OUTER_BOUND('',#65,.T.);
#44=FACE_OUTER_BOUND('',#66,.T.);
#45=FACE_OUTER_BOUND('',#67,.T.);
#46=FACE_OUTER_BOUND('',#68,.T.);
#47=FACE_OUTER_BOUND('',#69,.T.);
#48=FACE_OUTER_BOUND('',#70,.T.);
#49=FACE_OUTER_BOUND('',#71,.T.);
#50=FACE_OUTER_BOUND('',#73,.T.);
#51=FACE_OUTER_BOUND('',#75,.T.);
#52=FACE_OUTER_BOUND('',#77,.T.);
#53=FACE_OUTER_BOUND('',#78,.T.);
#54=FACE_OUTER_BOUND('',#79,.T.);
#55=FACE_OUTER_BOUND('',#81,.T.);
#56=FACE_OUTER_BOUND('',#82,.T.);
#57=FACE_OUTER_BOUND('',#83,.T.);
#58=FACE_OUTER_BOUND('',#84,.T.);
#59=FACE_OUTER_BOUND('',#85,.T.);
#60=FACE_OUTER_BOUND('',#86,.T.);
#61=EDGE_LOOP('',(#245,#246,#247,#248,#249));
#62=EDGE_LOOP('',(#250,#251,#252,#253,#254,#255));
#63=EDGE_LOOP('',(#256));
#64=EDGE_LOOP('',(#257));
#65=EDGE_LOOP('',(#258,#259,#260,#261,#262,#263));
#66=EDGE_LOOP('',(#264,#265,#266,#267,#268));
#67=EDGE_LOOP('',(#269,#270,#271,#272,#273,#274));
#68=EDGE_LOOP('',(#275,#276,#277,#278));
#69=EDGE_LOOP('',(#279,#280,#281,#282));
#70=EDGE_LOOP('',(#283,#284,#285,#286));
#71=EDGE_LOOP('',(#287,#288));
#72=EDGE_LOOP('',(#289));
#73=EDGE_LOOP('',(#290,#291));
#74=EDGE_LOOP('',(#292));
#75=EDGE_LOOP('',(#293,#294));
#76=EDGE_LOOP('',(#295));
#77=EDGE_LOOP('',(#296,#297,#298,#299,#300,#301));
#78=EDGE_LOOP('',(#302,#303,#304,#305));
#79=EDGE_LOOP('',(#306,#307));
#80=EDGE_LOOP('',(#308));
#81=EDGE_LOOP('',(#309,#310,#311,#312,#313,#314));
#82=EDGE_LOOP('',(#315,#316,#317,#318));
#83=EDGE_LOOP('',(#319,#320,#321,#322));
#84=EDGE_LOOP('',(#323,#324,#325,#326));
#85=EDGE_LOOP('',(#327,#328,#329,#330));
#86=EDGE_LOOP('',(#331,#332,#333,#334,#335,#336));
#87=EDGE_LOOP('',(#337,#338));
#88=EDGE_LOOP('',(#339,#340));
#89=LINE('',#542,#115);
#90=LINE('',#549,#116);
#91=LINE('',#551,#117);
#92=LINE('',#553,#118);
#93=LINE('',#555,#119);
#94=LINE('',#557,#120);
#95=LINE('',#558,#121);
#96=LINE('',#563,#122);
#97=LINE('',#569,#123);
#98=LINE('',#575,#124);
#99=LINE('',#581,#125);
#100=LINE('',#583,#126);
#101=LINE('',#584,#127);
#102=LINE('',#587,#128);
#103=LINE('',#589,#129);
#104=LINE('',#590,#130);
#105=LINE('',#592,#131);
#106=LINE('',#611,#132);
#107=LINE('',#613,#133);
#108=LINE('',#626,#134);
#109=LINE('',#628,#135);
#110=LINE('',#631,#136);
#111=LINE('',#633,#137);
#112=LINE('',#634,#138);
#113=LINE('',#636,#139);
#114=LINE('',#638,#140);
#115=VECTOR('',#431,3.1);
#116=VECTOR('',#438,10.);
#117=VECTOR('',#439,10.);
#118=VECTOR('',#440,10.);
#119=VECTOR('',#441,10.);
#120=VECTOR('',#442,10.);
#121=VECTOR('',#443,10.);
#122=VECTOR('',#448,3.);
#123=VECTOR('',#455,3.1);
#124=VECTOR('',#462,3.);
#125=VECTOR('',#469,10.);
#126=VECTOR('',#470,10.);
#127=VECTOR('',#471,10.);
#128=VECTOR('',#474,10.);
#129=VECTOR('',#475,10.);
#130=VECTOR('',#476,10.);
#131=VECTOR('',#479,10.);
#132=VECTOR('',#502,4.);
#133=VECTOR('',#505,2.25);
#134=VECTOR('',#520,4.);
#135=VECTOR('',#523,2.25);
#136=VECTOR('',#526,10.);
#137=VECTOR('',#527,10.);
#138=VECTOR('',#528,10.);
#139=VECTOR('',#531,10.);
#140=VECTOR('',#534,10.);
#141=CIRCLE('',#384,3.2);
#142=CIRCLE('',#385,3.);
#143=CIRCLE('',#386,3.);
#144=CIRCLE('',#388,3.2);
#145=CIRCLE('',#390,3.);
#146=CIRCLE('',#391,3.);
#147=CIRCLE('',#393,3.);
#148=CIRCLE('',#394,3.);
#149=CIRCLE('',#396,3.);
#150=CIRCLE('',#397,3.);
#151=CIRCLE('',#402,2.25);
#152=CIRCLE('',#404,2.25);
#153=CIRCLE('',#406,4.);
#154=CIRCLE('',#407,4.);
#155=CIRCLE('',#408,2.25);
#156=CIRCLE('',#410,4.);
#157=CIRCLE('',#411,4.);
#158=CIRCLE('',#414,4.);
#159=CIRCLE('',#415,4.);
#160=CIRCLE('',#416,2.25);
#161=CIRCLE('',#418,4.);
#162=CIRCLE('',#419,4.);
#163=VERTEX_POINT('',#539);
#164=VERTEX_POINT('',#541);
#165=VERTEX_POINT('',#543);
#166=VERTEX_POINT('',#547);
#167=VERTEX_POINT('',#548);
#168=VERTEX_POINT('',#550);
#169=VERTEX_POINT('',#552);
#170=VERTEX_POINT('',#554);
#171=VERTEX_POINT('',#556);
#172=VERTEX_POINT('',#559);
#173=VERTEX_POINT('',#562);
#174=VERTEX_POINT('',#564);
#175=VERTEX_POINT('',#568);
#176=VERTEX_POINT('',#570);
#177=VERTEX_POINT('',#574);
#178=VERTEX_POINT('',#576);
#179=VERTEX_POINT('',#580);
#180=VERTEX_POINT('',#582);
#181=VERTEX_POINT('',#586);
#182=VERTEX_POINT('',#588);
#183=VERTEX_POINT('',#594);
#184=VERTEX_POINT('',#597);
#185=VERTEX_POINT('',#600);
#186=VERTEX_POINT('',#601);
#187=VERTEX_POINT('',#604);
#188=VERTEX_POINT('',#607);
#189=VERTEX_POINT('',#608);
#190=VERTEX_POINT('',#615);
#191=VERTEX_POINT('',#616);
#192=VERTEX_POINT('',#619);
#193=VERTEX_POINT('',#622);
#194=VERTEX_POINT('',#623);
#195=VERTEX_POINT('',#630);
#196=VERTEX_POINT('',#632);
#197=EDGE_CURVE('',#163,#163,#141,.T.);
#198=EDGE_CURVE('',#163,#164,#89,.T.);
#199=EDGE_CURVE('',#164,#165,#142,.T.);
#200=EDGE_CURVE('',#165,#164,#143,.T.);
#201=EDGE_CURVE('',#166,#167,#90,.T.);
#202=EDGE_CURVE('',#168,#167,#91,.T.);
#203=EDGE_CURVE('',#169,#168,#92,.T.);
#204=EDGE_CURVE('',#170,#169,#93,.T.);
#205=EDGE_CURVE('',#170,#171,#94,.T.);
#206=EDGE_CURVE('',#166,#171,#95,.T.);
#207=EDGE_CURVE('',#172,#172,#144,.T.);
#208=EDGE_CURVE('',#165,#173,#96,.T.);
#209=EDGE_CURVE('',#174,#173,#145,.T.);
#210=EDGE_CURVE('',#173,#174,#146,.T.);
#211=EDGE_CURVE('',#172,#175,#97,.T.);
#212=EDGE_CURVE('',#175,#176,#147,.T.);
#213=EDGE_CURVE('',#176,#175,#148,.T.);
#214=EDGE_CURVE('',#176,#177,#98,.T.);
#215=EDGE_CURVE('',#178,#177,#149,.T.);
#216=EDGE_CURVE('',#177,#178,#150,.T.);
#217=EDGE_CURVE('',#179,#166,#99,.T.);
#218=EDGE_CURVE('',#180,#179,#100,.T.);
#219=EDGE_CURVE('',#167,#180,#101,.T.);
#220=EDGE_CURVE('',#181,#170,#102,.T.);
#221=EDGE_CURVE('',#182,#181,#103,.T.);
#222=EDGE_CURVE('',#171,#182,#104,.T.);
#223=EDGE_CURVE('',#179,#182,#105,.T.);
#224=EDGE_CURVE('',#183,#183,#151,.T.);
#225=EDGE_CURVE('',#184,#184,#152,.T.);
#226=EDGE_CURVE('',#185,#186,#153,.T.);
#227=EDGE_CURVE('',#186,#185,#154,.T.);
#228=EDGE_CURVE('',#187,#187,#155,.T.);
#229=EDGE_CURVE('',#188,#189,#156,.T.);
#230=EDGE_CURVE('',#189,#188,#157,.T.);
#231=EDGE_CURVE('',#189,#186,#106,.T.);
#232=EDGE_CURVE('',#187,#183,#107,.T.);
#233=EDGE_CURVE('',#190,#191,#158,.T.);
#234=EDGE_CURVE('',#191,#190,#159,.T.);
#235=EDGE_CURVE('',#192,#192,#160,.T.);
#236=EDGE_CURVE('',#193,#194,#161,.T.);
#237=EDGE_CURVE('',#194,#193,#162,.T.);
#238=EDGE_CURVE('',#194,#191,#108,.T.);
#239=EDGE_CURVE('',#192,#184,#109,.T.);
#240=EDGE_CURVE('',#168,#195,#110,.T.);
#241=EDGE_CURVE('',#196,#195,#111,.T.);
#242=EDGE_CURVE('',#169,#196,#112,.T.);
#243=EDGE_CURVE('',#181,#196,#113,.T.);
#244=EDGE_CURVE('',#195,#180,#114,.T.);
#245=ORIENTED_EDGE('',*,*,#197,.T.);
#246=ORIENTED_EDGE('',*,*,#198,.T.);
#247=ORIENTED_EDGE('',*,*,#199,.T.);
#248=ORIENTED_EDGE('',*,*,#200,.T.);
#249=ORIENTED_EDGE('',*,*,#198,.F.);
#250=ORIENTED_EDGE('',*,*,#201,.T.);
#251=ORIENTED_EDGE('',*,*,#202,.F.);
#252=ORIENTED_EDGE('',*,*,#203,.F.);
#253=ORIENTED_EDGE('',*,*,#204,.F.);
#254=ORIENTED_EDGE('',*,*,#205,.T.);
#255=ORIENTED_EDGE('',*,*,#206,.F.);
#256=ORIENTED_EDGE('',*,*,#207,.F.);
#257=ORIENTED_EDGE('',*,*,#197,.F.);
#258=ORIENTED_EDGE('',*,*,#199,.F.);
#259=ORIENTED_EDGE('',*,*,#200,.F.);
#260=ORIENTED_EDGE('',*,*,#208,.T.);
#261=ORIENTED_EDGE('',*,*,#209,.F.);
#262=ORIENTED_EDGE('',*,*,#210,.F.);
#263=ORIENTED_EDGE('',*,*,#208,.F.);
#264=ORIENTED_EDGE('',*,*,#207,.T.);
#265=ORIENTED_EDGE('',*,*,#211,.T.);
#266=ORIENTED_EDGE('',*,*,#212,.T.);
#267=ORIENTED_EDGE('',*,*,#213,.T.);
#268=ORIENTED_EDGE('',*,*,#211,.F.);
#269=ORIENTED_EDGE('',*,*,#212,.F.);
#270=ORIENTED_EDGE('',*,*,#213,.F.);
#271=ORIENTED_EDGE('',*,*,#214,.T.);
#272=ORIENTED_EDGE('',*,*,#215,.F.);
#273=ORIENTED_EDGE('',*,*,#216,.F.);
#274=ORIENTED_EDGE('',*,*,#214,.F.);
#275=ORIENTED_EDGE('',*,*,#201,.F.);
#276=ORIENTED_EDGE('',*,*,#217,.F.);
#277=ORIENTED_EDGE('',*,*,#218,.F.);
#278=ORIENTED_EDGE('',*,*,#219,.F.);
#279=ORIENTED_EDGE('',*,*,#205,.F.);
#280=ORIENTED_EDGE('',*,*,#220,.F.);
#281=ORIENTED_EDGE('',*,*,#221,.F.);
#282=ORIENTED_EDGE('',*,*,#222,.F.);
#283=ORIENTED_EDGE('',*,*,#217,.T.);
#284=ORIENTED_EDGE('',*,*,#206,.T.);
#285=ORIENTED_EDGE('',*,*,#222,.T.);
#286=ORIENTED_EDGE('',*,*,#223,.F.);
#287=ORIENTED_EDGE('',*,*,#215,.T.);
#288=ORIENTED_EDGE('',*,*,#216,.T.);
#289=ORIENTED_EDGE('',*,*,#224,.F.);
#290=ORIENTED_EDGE('',*,*,#209,.T.);
#291=ORIENTED_EDGE('',*,*,#210,.T.);
#292=ORIENTED_EDGE('',*,*,#225,.F.);
#293=ORIENTED_EDGE('',*,*,#226,.T.);
#294=ORIENTED_EDGE('',*,*,#227,.T.);
#295=ORIENTED_EDGE('',*,*,#228,.F.);
#296=ORIENTED_EDGE('',*,*,#229,.F.);
#297=ORIENTED_EDGE('',*,*,#230,.F.);
#298=ORIENTED_EDGE('',*,*,#231,.T.);
#299=ORIENTED_EDGE('',*,*,#226,.F.);
#300=ORIENTED_EDGE('',*,*,#227,.F.);
#301=ORIENTED_EDGE('',*,*,#231,.F.);
#302=ORIENTED_EDGE('',*,*,#228,.T.);
#303=ORIENTED_EDGE('',*,*,#232,.T.);
#304=ORIENTED_EDGE('',*,*,#224,.T.);
#305=ORIENTED_EDGE('',*,*,#232,.F.);
#306=ORIENTED_EDGE('',*,*,#233,.T.);
#307=ORIENTED_EDGE('',*,*,#234,.T.);
#308=ORIENTED_EDGE('',*,*,#235,.F.);
#309=ORIENTED_EDGE('',*,*,#236,.F.);
#310=ORIENTED_EDGE('',*,*,#237,.F.);
#311=ORIENTED_EDGE('',*,*,#238,.T.);
#312=ORIENTED_EDGE('',*,*,#233,.F.);
#313=ORIENTED_EDGE('',*,*,#234,.F.);
#314=ORIENTED_EDGE('',*,*,#238,.F.);
#315=ORIENTED_EDGE('',*,*,#235,.T.);
#316=ORIENTED_EDGE('',*,*,#239,.T.);
#317=ORIENTED_EDGE('',*,*,#225,.T.);
#318=ORIENTED_EDGE('',*,*,#239,.F.);
#319=ORIENTED_EDGE('',*,*,#203,.T.);
#320=ORIENTED_EDGE('',*,*,#240,.T.);
#321=ORIENTED_EDGE('',*,*,#241,.F.);
#322=ORIENTED_EDGE('',*,*,#242,.F.);
#323=ORIENTED_EDGE('',*,*,#220,.T.);
#324=ORIENTED_EDGE('',*,*,#204,.T.);
#325=ORIENTED_EDGE('',*,*,#242,.T.);
#326=ORIENTED_EDGE('',*,*,#243,.F.);
#327=ORIENTED_EDGE('',*,*,#219,.T.);
#328=ORIENTED_EDGE('',*,*,#244,.F.);
#329=ORIENTED_EDGE('',*,*,#240,.F.);
#330=ORIENTED_EDGE('',*,*,#202,.T.);
#331=ORIENTED_EDGE('',*,*,#218,.T.);
#332=ORIENTED_EDGE('',*,*,#223,.T.);
#333=ORIENTED_EDGE('',*,*,#221,.T.);
#334=ORIENTED_EDGE('',*,*,#243,.T.);
#335=ORIENTED_EDGE('',*,*,#241,.T.);
#336=ORIENTED_EDGE('',*,*,#244,.T.);
#337=ORIENTED_EDGE('',*,*,#229,.T.);
#338=ORIENTED_EDGE('',*,*,#230,.T.);
#339=ORIENTED_EDGE('',*,*,#236,.T.);
#340=ORIENTED_EDGE('',*,*,#237,.T.);
#341=CONICAL_SURFACE('',#383,3.1,0.785398163397449);
#342=CONICAL_SURFACE('',#392,3.1,0.785398163397449);
#343=ADVANCED_FACE('',(#41),#341,.F.);
#344=ADVANCED_FACE('',(#42,#21,#22),#29,.F.);
#345=ADVANCED_FACE('',(#43),#15,.F.);
#346=ADVANCED_FACE('',(#44),#342,.F.);
#347=ADVANCED_FACE('',(#45),#16,.F.);
#348=ADVANCED_FACE('',(#46),#30,.F.);
#349=ADVANCED_FACE('',(#47),#31,.F.);
#350=ADVANCED_FACE('',(#48),#32,.T.);
#351=ADVANCED_FACE('',(#49,#23),#33,.T.);
#352=ADVANCED_FACE('',(#50,#24),#34,.T.);
#353=ADVANCED_FACE('',(#51,#25),#35,.T.);
#354=ADVANCED_FACE('',(#52),#17,.F.);
#355=ADVANCED_FACE('',(#53),#18,.F.);
#356=ADVANCED_FACE('',(#54,#26),#36,.T.);
#357=ADVANCED_FACE('',(#55),#19,.F.);
#358=ADVANCED_FACE('',(#56),#20,.F.);
#359=ADVANCED_FACE('',(#57),#37,.T.);
#360=ADVANCED_FACE('',(#58),#38,.T.);
#361=ADVANCED_FACE('',(#59),#39,.T.);
#362=ADVANCED_FACE('',(#60,#27,#28),#40,.T.);
#363=CLOSED_SHELL('',(#343,#344,#345,#346,#347,#348,#349,#350,#351,#352,
#353,#354,#355,#356,#357,#358,#359,#360,#361,#362));
#364=DERIVED_UNIT_ELEMENT(#366,1.);
#365=DERIVED_UNIT_ELEMENT(#645,3.);
#366=(
MASS_UNIT()
NAMED_UNIT(*)
SI_UNIT($,.GRAM.)
);
#367=DERIVED_UNIT((#364,#365));
#368=MEASURE_REPRESENTATION_ITEM('density measure',
POSITIVE_RATIO_MEASURE(2.71),#367);
#369=PROPERTY_DEFINITION_REPRESENTATION(#374,#371);
#370=PROPERTY_DEFINITION_REPRESENTATION(#375,#372);
#371=REPRESENTATION('material name',(#373),#642);
#372=REPRESENTATION('density',(#368),#642);
#373=DESCRIPTIVE_REPRESENTATION_ITEM('Alluminio 6061','Alluminio 6061');
#374=PROPERTY_DEFINITION('material property','material name',#652);
#375=PROPERTY_DEFINITION('material property','density of part',#652);
#376=DATE_TIME_ROLE('creation_date');
#377=APPLIED_DATE_AND_TIME_ASSIGNMENT(#378,#376,(#652));
#378=DATE_AND_TIME(#379,#380);
#379=CALENDAR_DATE(2019,14,11);
#380=LOCAL_TIME(19,32,3.,#381);
#381=COORDINATED_UNIVERSAL_TIME_OFFSET(0,0,.BEHIND.);
#382=AXIS2_PLACEMENT_3D('placement',#537,#425,#426);
#383=AXIS2_PLACEMENT_3D('',#538,#427,#428);
#384=AXIS2_PLACEMENT_3D('',#540,#429,#430);
#385=AXIS2_PLACEMENT_3D('',#544,#432,#433);
#386=AXIS2_PLACEMENT_3D('',#545,#434,#435);
#387=AXIS2_PLACEMENT_3D('',#546,#436,#437);
#388=AXIS2_PLACEMENT_3D('',#560,#444,#445);
#389=AXIS2_PLACEMENT_3D('',#561,#446,#447);
#390=AXIS2_PLACEMENT_3D('',#565,#449,#450);
#391=AXIS2_PLACEMENT_3D('',#566,#451,#452);
#392=AXIS2_PLACEMENT_3D('',#567,#453,#454);
#393=AXIS2_PLACEMENT_3D('',#571,#456,#457);
#394=AXIS2_PLACEMENT_3D('',#572,#458,#459);
#395=AXIS2_PLACEMENT_3D('',#573,#460,#461);
#396=AXIS2_PLACEMENT_3D('',#577,#463,#464);
#397=AXIS2_PLACEMENT_3D('',#578,#465,#466);
#398=AXIS2_PLACEMENT_3D('',#579,#467,#468);
#399=AXIS2_PLACEMENT_3D('',#585,#472,#473);
#400=AXIS2_PLACEMENT_3D('',#591,#477,#478);
#401=AXIS2_PLACEMENT_3D('',#593,#480,#481);
#402=AXIS2_PLACEMENT_3D('',#595,#482,#483);
#403=AXIS2_PLACEMENT_3D('',#596,#484,#485);
#404=AXIS2_PLACEMENT_3D('',#598,#486,#487);
#405=AXIS2_PLACEMENT_3D('',#599,#488,#489);
#406=AXIS2_PLACEMENT_3D('',#602,#490,#491);
#407=AXIS2_PLACEMENT_3D('',#603,#492,#493);
#408=AXIS2_PLACEMENT_3D('',#605,#494,#495);
#409=AXIS2_PLACEMENT_3D('',#606,#496,#497);
#410=AXIS2_PLACEMENT_3D('',#609,#498,#499);
#411=AXIS2_PLACEMENT_3D('',#610,#500,#501);
#412=AXIS2_PLACEMENT_3D('',#612,#503,#504);
#413=AXIS2_PLACEMENT_3D('',#614,#506,#507);
#414=AXIS2_PLACEMENT_3D('',#617,#508,#509);
#415=AXIS2_PLACEMENT_3D('',#618,#510,#511);
#416=AXIS2_PLACEMENT_3D('',#620,#512,#513);
#417=AXIS2_PLACEMENT_3D('',#621,#514,#515);
#418=AXIS2_PLACEMENT_3D('',#624,#516,#517);
#419=AXIS2_PLACEMENT_3D('',#625,#518,#519);
#420=AXIS2_PLACEMENT_3D('',#627,#521,#522);
#421=AXIS2_PLACEMENT_3D('',#629,#524,#525);
#422=AXIS2_PLACEMENT_3D('',#635,#529,#530);
#423=AXIS2_PLACEMENT_3D('',#637,#532,#533);
#424=AXIS2_PLACEMENT_3D('',#639,#535,#536);
#425=DIRECTION('axis',(0.,0.,1.));
#426=DIRECTION('refdir',(1.,0.,0.));
#427=DIRECTION('center_axis',(0.,0.,-1.));
#428=DIRECTION('ref_axis',(1.,0.,0.));
#429=DIRECTION('center_axis',(0.,0.,-1.));
#430=DIRECTION('ref_axis',(1.,0.,0.));
#431=DIRECTION('',(0.707106781186548,-8.65956056235494E-17,0.707106781186547));
#432=DIRECTION('center_axis',(0.,0.,1.));
#433=DIRECTION('ref_axis',(1.,0.,0.));
#434=DIRECTION('center_axis',(0.,0.,1.));
#435=DIRECTION('ref_axis',(1.,0.,0.));
#436=DIRECTION('center_axis',(0.,0.,1.));
#437=DIRECTION('ref_axis',(1.,0.,0.));
#438=DIRECTION('',(-0.499999999999999,-0.866025403784439,0.));
#439=DIRECTION('',(1.,0.,0.));
#440=DIRECTION('',(0.,-1.,0.));
#441=DIRECTION('',(-1.,0.,0.));
#442=DIRECTION('',(0.5,-0.866025403784439,0.));
#443=DIRECTION('',(0.,1.,0.));
#444=DIRECTION('center_axis',(0.,0.,-1.));
#445=DIRECTION('ref_axis',(1.,0.,0.));
#446=DIRECTION('center_axis',(0.,0.,-1.));
#447=DIRECTION('ref_axis',(-1.,0.,0.));
#448=DIRECTION('',(0.,0.,1.));
#449=DIRECTION('center_axis',(0.,0.,-1.));
#450=DIRECTION('ref_axis',(-1.,0.,0.));
#451=DIRECTION('center_axis',(0.,0.,-1.));
#452=DIRECTION('ref_axis',(-1.,0.,0.));
#453=DIRECTION('center_axis',(0.,0.,-1.));
#454=DIRECTION('ref_axis',(1.,0.,0.));
#455=DIRECTION('',(0.707106781186548,-8.65956056235494E-17,0.707106781186547));
#456=DIRECTION('center_axis',(0.,0.,1.));
#457=DIRECTION('ref_axis',(1.,0.,0.));
#458=DIRECTION('center_axis',(0.,0.,1.));
#459=DIRECTION('ref_axis',(1.,0.,0.));
#460=DIRECTION('center_axis',(0.,0.,-1.));
#461=DIRECTION('ref_axis',(-1.,0.,0.));
#462=DIRECTION('',(0.,0.,1.));
#463=DIRECTION('center_axis',(0.,0.,-1.));
#464=DIRECTION('ref_axis',(-1.,0.,0.));
#465=DIRECTION('center_axis',(0.,0.,-1.));
#466=DIRECTION('ref_axis',(-1.,0.,0.));
#467=DIRECTION('center_axis',(-0.866025403784439,0.499999999999999,0.));
#468=DIRECTION('ref_axis',(0.499999999999999,0.866025403784439,0.));
#469=DIRECTION('',(0.,0.,-1.));
#470=DIRECTION('',(0.499999999999999,0.866025403784439,0.));
#471=DIRECTION('',(0.,0.,1.));
#472=DIRECTION('center_axis',(-0.866025403784439,-0.5,0.));
#473=DIRECTION('ref_axis',(-0.5,0.866025403784439,0.));
#474=DIRECTION('',(0.,0.,-1.));
#475=DIRECTION('',(-0.5,0.866025403784439,0.));
#476=DIRECTION('',(0.,0.,1.));
#477=DIRECTION('center_axis',(1.,0.,0.));
#478=DIRECTION('ref_axis',(0.,1.,0.));
#479=DIRECTION('',(0.,1.,0.));
#480=DIRECTION('center_axis',(0.,0.,-1.));
#481=DIRECTION('ref_axis',(-1.,0.,0.));
#482=DIRECTION('center_axis',(0.,0.,-1.));
#483=DIRECTION('ref_axis',(1.,0.,0.));
#484=DIRECTION('center_axis',(0.,0.,-1.));
#485=DIRECTION('ref_axis',(-1.,0.,0.));
#486=DIRECTION('center_axis',(0.,0.,-1.));
#487=DIRECTION('ref_axis',(1.,0.,0.));
#488=DIRECTION('center_axis',(0.,0.,1.));
#489=DIRECTION('ref_axis',(1.,0.,0.));
#490=DIRECTION('center_axis',(0.,0.,1.));
#491=DIRECTION('ref_axis',(1.,0.,0.));
#492=DIRECTION('center_axis',(0.,0.,1.));
#493=DIRECTION('ref_axis',(1.,0.,0.));
#494=DIRECTION('center_axis',(0.,0.,1.));
#495=DIRECTION('ref_axis',(1.,0.,0.));
#496=DIRECTION('center_axis',(0.,0.,1.));
#497=DIRECTION('ref_axis',(1.,0.,0.));
#498=DIRECTION('center_axis',(0.,0.,-1.));
#499=DIRECTION('ref_axis',(1.,0.,0.));
#500=DIRECTION('center_axis',(0.,0.,-1.));
#501=DIRECTION('ref_axis',(1.,0.,0.));
#502=DIRECTION('',(0.,0.,-1.));
#503=DIRECTION('center_axis',(0.,0.,1.));
#504=DIRECTION('ref_axis',(1.,0.,0.));
#505=DIRECTION('',(0.,0.,-1.));
#506=DIRECTION('center_axis',(0.,0.,1.));
#507=DIRECTION('ref_axis',(1.,0.,0.));
#508=DIRECTION('center_axis',(0.,0.,1.));
#509=DIRECTION('ref_axis',(1.,0.,0.));
#510=DIRECTION('center_axis',(0.,0.,1.));
#511=DIRECTION('ref_axis',(1.,0.,0.));
#512=DIRECTION('center_axis',(0.,0.,1.));
#513=DIRECTION('ref_axis',(1.,0.,0.));
#514=DIRECTION('center_axis',(0.,0.,1.));
#515=DIRECTION('ref_axis',(1.,0.,0.));
#516=DIRECTION('center_axis',(0.,0.,-1.));
#517=DIRECTION('ref_axis',(1.,0.,0.));
#518=DIRECTION('center_axis',(0.,0.,-1.));
#519=DIRECTION('ref_axis',(1.,0.,0.));
#520=DIRECTION('',(0.,0.,-1.));
#521=DIRECTION('center_axis',(0.,0.,1.));
#522=DIRECTION('ref_axis',(1.,0.,0.));
#523=DIRECTION('',(0.,0.,-1.));
#524=DIRECTION('center_axis',(-1.,0.,0.));
#525=DIRECTION('ref_axis',(0.,-1.,0.));
#526=DIRECTION('',(0.,0.,1.));
#527=DIRECTION('',(0.,-1.,0.));
#528=DIRECTION('',(0.,0.,1.));
#529=DIRECTION('center_axis',(0.,1.,0.));
#530=DIRECTION('ref_axis',(-1.,0.,0.));
#531=DIRECTION('',(-1.,0.,0.));
#532=DIRECTION('center_axis',(0.,-1.,0.));
#533=DIRECTION('ref_axis',(1.,0.,0.));
#534=DIRECTION('',(1.,0.,0.));
#535=DIRECTION('center_axis',(0.,0.,1.));
#536=DIRECTION('ref_axis',(1.,0.,0.));
#537=CARTESIAN_POINT('',(0.,0.,0.));
#538=CARTESIAN_POINT('Origin',(13.,0.,0.1));
#539=CARTESIAN_POINT('',(9.8,3.91886975727153E-16,0.));
#540=CARTESIAN_POINT('Origin',(13.,0.,0.));
#541=CARTESIAN_POINT('',(10.,-3.67394039744206E-16,0.2));
#542=CARTESIAN_POINT('',(9.9,3.7964050773568E-16,0.1));
#543=CARTESIAN_POINT('',(16.,-3.67394039744206E-16,0.2));
#544=CARTESIAN_POINT('Origin',(13.,0.,0.2));
#545=CARTESIAN_POINT('Origin',(13.,0.,0.2));
#546=CARTESIAN_POINT('Origin',(11.,0.,0.));
#547=CARTESIAN_POINT('',(27.,-4.25,0.));
#548=CARTESIAN_POINT('',(23.6802359521597,-10.,0.));
#549=CARTESIAN_POINT('',(24.2602699676008,-8.99535161513775,0.));
#550=CARTESIAN_POINT('',(-5.,-10.,0.));
#551=CARTESIAN_POINT('',(-5.,-10.,0.));
#552=CARTESIAN_POINT('',(-5.,10.,0.));
#553=CARTESIAN_POINT('',(-5.,10.,0.));
#554=CARTESIAN_POINT('',(23.6802359521597,10.,0.));
#555=CARTESIAN_POINT('',(27.,10.,0.));
#556=CARTESIAN_POINT('',(27.,4.25,0.));
#557=CARTESIAN_POINT('',(25.920151991521,6.12035161513775,0.));
#558=CARTESIAN_POINT('',(27.,-10.,0.));
#559=CARTESIAN_POINT('',(-3.2,3.91886975727153E-16,0.));
#560=CARTESIAN_POINT('Origin',(0.,0.,0.));
#561=CARTESIAN_POINT('Origin',(13.,0.,1.25));
#562=CARTESIAN_POINT('',(16.,-3.67394039744206E-16,2.5));
#563=CARTESIAN_POINT('',(16.,-3.67394039744206E-16,1.25));
#564=CARTESIAN_POINT('',(10.,0.,2.5));
#565=CARTESIAN_POINT('Origin',(13.,0.,2.5));
#566=CARTESIAN_POINT('Origin',(13.,0.,2.5));
#567=CARTESIAN_POINT('Origin',(0.,0.,0.1));
#568=CARTESIAN_POINT('',(-3.,-3.67394039744206E-16,0.2));
#569=CARTESIAN_POINT('',(-3.1,3.7964050773568E-16,0.1));
#570=CARTESIAN_POINT('',(3.,-3.67394039744206E-16,0.2));
#571=CARTESIAN_POINT('Origin',(0.,0.,0.2));
#572=CARTESIAN_POINT('Origin',(0.,0.,0.2));
#573=CARTESIAN_POINT('Origin',(0.,0.,1.25));
#574=CARTESIAN_POINT('',(3.,-3.67394039744206E-16,2.5));
#575=CARTESIAN_POINT('',(3.,-3.67394039744206E-16,1.25));
#576=CARTESIAN_POINT('',(-3.,0.,2.5));
#577=CARTESIAN_POINT('Origin',(0.,0.,2.5));
#578=CARTESIAN_POINT('Origin',(0.,0.,2.5));
#579=CARTESIAN_POINT('Origin',(23.6802359521597,-10.,64.));
#580=CARTESIAN_POINT('',(27.,-4.25,64.));
#581=CARTESIAN_POINT('',(27.,-4.24999999999999,32.));
#582=CARTESIAN_POINT('',(23.6802359521597,-10.,64.));
#583=CARTESIAN_POINT('',(24.2602699676008,-8.99535161513775,64.));
#584=CARTESIAN_POINT('',(23.6802359521597,-10.,32.));
#585=CARTESIAN_POINT('Origin',(27.,4.25,64.));
#586=CARTESIAN_POINT('',(23.6802359521597,10.,64.));
#587=CARTESIAN_POINT('',(23.6802359521597,10.,32.));
#588=CARTESIAN_POINT('',(27.,4.25,64.));
#589=CARTESIAN_POINT('',(25.920151991521,6.12035161513775,64.));
#590=CARTESIAN_POINT('',(27.,4.25,32.));
#591=CARTESIAN_POINT('Origin',(27.,-10.,0.));
#592=CARTESIAN_POINT('',(27.,-10.,64.));
#593=CARTESIAN_POINT('Origin',(0.,0.,2.5));
#594=CARTESIAN_POINT('',(-2.25,2.75545529808154E-16,2.5));
#595=CARTESIAN_POINT('Origin',(0.,0.,2.5));
#596=CARTESIAN_POINT('Origin',(13.,0.,2.5));
#597=CARTESIAN_POINT('',(10.75,2.75545529808154E-16,2.5));
#598=CARTESIAN_POINT('Origin',(13.,0.,2.5));
#599=CARTESIAN_POINT('Origin',(0.,0.,4.5));
#600=CARTESIAN_POINT('',(4.,0.,4.5));
#601=CARTESIAN_POINT('',(-4.,-4.89858719658941E-16,4.5));
#602=CARTESIAN_POINT('Origin',(0.,0.,4.5));
#603=CARTESIAN_POINT('Origin',(0.,0.,4.5));
#604=CARTESIAN_POINT('',(-2.25,-2.75545529808154E-16,4.5));
#605=CARTESIAN_POINT('Origin',(0.,0.,4.5));
#606=CARTESIAN_POINT('Origin',(0.,0.,34.25));
#607=CARTESIAN_POINT('',(4.,0.,64.));
#608=CARTESIAN_POINT('',(-4.,-4.89858719658941E-16,64.));
#609=CARTESIAN_POINT('Origin',(0.,0.,64.));
#610=CARTESIAN_POINT('Origin',(0.,0.,64.));
#611=CARTESIAN_POINT('',(-4.,-4.89858719658941E-16,34.25));
#612=CARTESIAN_POINT('Origin',(0.,0.,-10.2967024840268));
#613=CARTESIAN_POINT('',(-2.25,-2.75545529808154E-16,-10.2967024840268));
#614=CARTESIAN_POINT('Origin',(13.,0.,4.5));
#615=CARTESIAN_POINT('',(17.,0.,4.5));
#616=CARTESIAN_POINT('',(9.,-4.89858719658941E-16,4.5));
#617=CARTESIAN_POINT('Origin',(13.,0.,4.5));
#618=CARTESIAN_POINT('Origin',(13.,0.,4.5));
#619=CARTESIAN_POINT('',(10.75,-2.75545529808154E-16,4.5));
#620=CARTESIAN_POINT('Origin',(13.,0.,4.5));
#621=CARTESIAN_POINT('Origin',(13.,0.,34.25));
#622=CARTESIAN_POINT('',(17.,0.,64.));
#623=CARTESIAN_POINT('',(9.,-4.89858719658941E-16,64.));
#624=CARTESIAN_POINT('Origin',(13.,0.,64.));
#625=CARTESIAN_POINT('Origin',(13.,0.,64.));
#626=CARTESIAN_POINT('',(9.,-4.89858719658941E-16,34.25));
#627=CARTESIAN_POINT('Origin',(13.,0.,-10.2967024840268));
#628=CARTESIAN_POINT('',(10.75,-2.75545529808154E-16,-10.2967024840268));
#629=CARTESIAN_POINT('Origin',(-5.,10.,0.));
#630=CARTESIAN_POINT('',(-5.,-10.,64.));
#631=CARTESIAN_POINT('',(-5.,-10.,0.));
#632=CARTESIAN_POINT('',(-5.,10.,64.));
#633=CARTESIAN_POINT('',(-5.,10.,64.));
#634=CARTESIAN_POINT('',(-5.,10.,0.));
#635=CARTESIAN_POINT('Origin',(27.,10.,0.));
#636=CARTESIAN_POINT('',(27.,10.,64.));
#637=CARTESIAN_POINT('Origin',(-5.,-10.,0.));
#638=CARTESIAN_POINT('',(-5.,-10.,64.));
#639=CARTESIAN_POINT('Origin',(11.,0.,64.));
#640=UNCERTAINTY_MEASURE_WITH_UNIT(LENGTH_MEASURE(0.01),#644,
'DISTANCE_ACCURACY_VALUE',
'Maximum model space distance between geometric entities at asserted c
onnectivities');
#641=UNCERTAINTY_MEASURE_WITH_UNIT(LENGTH_MEASURE(0.01),#644,
'DISTANCE_ACCURACY_VALUE',
'Maximum model space distance between geometric entities at asserted c
onnectivities');
#642=(
GEOMETRIC_REPRESENTATION_CONTEXT(3)
GLOBAL_UNCERTAINTY_ASSIGNED_CONTEXT((#640))
GLOBAL_UNIT_ASSIGNED_CONTEXT((#644,#647,#646))
REPRESENTATION_CONTEXT('','3D')
);
#643=(
GEOMETRIC_REPRESENTATION_CONTEXT(3)
GLOBAL_UNCERTAINTY_ASSIGNED_CONTEXT((#641))
GLOBAL_UNIT_ASSIGNED_CONTEXT((#644,#647,#646))
REPRESENTATION_CONTEXT('','3D')
);
#644=(
LENGTH_UNIT()
NAMED_UNIT(*)
SI_UNIT(.MILLI.,.METRE.)
);
#645=(
LENGTH_UNIT()
NAMED_UNIT(*)
SI_UNIT(.CENTI.,.METRE.)
);
#646=(
NAMED_UNIT(*)
SI_UNIT($,.STERADIAN.)
SOLID_ANGLE_UNIT()
);
#647=(
NAMED_UNIT(*)
PLANE_ANGLE_UNIT()
SI_UNIT($,.RADIAN.)
);
#648=SHAPE_DEFINITION_REPRESENTATION(#649,#650);
#649=PRODUCT_DEFINITION_SHAPE('',$,#652);
#650=SHAPE_REPRESENTATION('',(#382),#642);
#651=PRODUCT_DEFINITION_CONTEXT('part definition',#656,'design');
#652=PRODUCT_DEFINITION('GS-CC-64','GS-CC-64',#653,#651);
#653=PRODUCT_DEFINITION_FORMATION('',$,#658);
#654=PRODUCT_RELATED_PRODUCT_CATEGORY('GS-CC-64','GS-CC-64',(#658));
#655=APPLICATION_PROTOCOL_DEFINITION('international standard',
'automotive_design',2009,#656);
#656=APPLICATION_CONTEXT(
'Core Data for Automotive Mechanical Design Process');
#657=PRODUCT_CONTEXT('part definition',#656,'mechanical');
#658=PRODUCT('GS-CC-64','GS-CC-64','GRIFFA PER PINZE PARALLELE',(#657));
#659=PRESENTATION_STYLE_ASSIGNMENT((#660));
#660=SURFACE_STYLE_USAGE(.BOTH.,#661);
#661=SURFACE_SIDE_STYLE('',(#662));
#662=SURFACE_STYLE_FILL_AREA(#663);
#663=FILL_AREA_STYLE('',(#664));
#664=FILL_AREA_STYLE_COLOUR('',#665);
#665=COLOUR_RGB('',0.956862745098039,0.956862745098039,0.956862745098039);
ENDSEC;
END-ISO-10303-21;
